ISO-10303-21;
HEADER;
FILE_DESCRIPTION (( 'STEP AP203' ),
    '1' );
FILE_NAME ('MQWP-25.4-808.STEP',
    '2020-12-22T09:31:04',
    ( '' ),
    ( '' ),
    'SwSTEP 2.0',
    'SolidWorks 2020',
    '' );
FILE_SCHEMA (( 'CONFIG_CONTROL_DESIGN' ));
ENDSEC;

DATA;
#1 = FACE_OUTER_BOUND ( 'NONE', #109, .T. ) ;
#2 = PERSON_AND_ORGANIZATION_ROLE ( 'classification_officer' ) ;
#3 = ORIENTED_EDGE ( 'NONE', *, *, #111, .T. ) ;
#4 = APPROVAL_STATUS ( 'not_yet_approved' ) ;
#5 = VERTEX_POINT ( 'NONE', #157 ) ;
#6 = LOCAL_TIME ( 17, 31, 4.000000000000000000, #94 ) ;
#7 = DATE_AND_TIME ( #161, #6 ) ;
#8 = DIRECTION ( 'NONE',  ( 0.000000000000000000, 0.000000000000000000, 1.000000000000000000 ) ) ;
#9 = CARTESIAN_POINT ( 'NONE',  ( 0.9999999999999995559, 0.000000000000000000, 0.000000000000000000 ) ) ;
#10 = ADVANCED_FACE ( 'NONE', ( #97 ), #16, .F. ) ;
#11 = PLANE ( 'NONE',  #162 ) ;
#12 =( NAMED_UNIT ( * ) PLANE_ANGLE_UNIT ( ) SI_UNIT ( $, .RADIAN. ) );
#13 = ORGANIZATION ( 'UNSPECIFIED', 'UNSPECIFIED', '' ) ;
#14 = APPROVAL ( #83, 'UNSPECIFIED' ) ;
#15 = PERSON_AND_ORGANIZATION ( #71, #13 ) ;
#16 = PLANE ( 'NONE',  #45 ) ;
#17 = DATE_AND_TIME ( #40, #48 ) ;
#18 = APPROVAL_ROLE ( '' ) ;
#19 = PRODUCT_RELATED_PRODUCT_CATEGORY ( 'detail', '', ( #61 ) ) ;
#20 = APPROVAL_ROLE ( '' ) ;
#21 = DIRECTION ( 'NONE',  ( -1.000000000000000000, -0.000000000000000000, -0.000000000000000000 ) ) ;
#22 = DATE_TIME_ROLE ( 'creation_date' ) ;
#23 = CARTESIAN_POINT ( 'NONE',  ( 0.9999999999999995559, 0.000000000000000000, 3.000000000000000000 ) ) ;
#24 = APPROVAL ( #4, 'UNSPECIFIED' ) ;
#25 = FACE_OUTER_BOUND ( 'NONE', #43, .T. ) ;
#26 = AXIS2_PLACEMENT_3D ( 'NONE', #62, #99, #58 ) ;
#27 =( GEOMETRIC_REPRESENTATION_CONTEXT ( 3 ) GLOBAL_UNCERTAINTY_ASSIGNED_CONTEXT ( ( #70 ) ) GLOBAL_UNIT_ASSIGNED_CONTEXT ( ( #138, #12, #76 ) ) REPRESENTATION_CONTEXT ( 'NONE', 'WORKASPACE' ) );
#28 = PRODUCT_DEFINITION_SHAPE ( 'NONE', 'NONE',  #50 ) ;
#29 = ORIENTED_EDGE ( 'NONE', *, *, #119, .F. ) ;
#30 = COORDINATED_UNIVERSAL_TIME_OFFSET ( 8, 0, .AHEAD. ) ;
#31 = VERTEX_POINT ( 'NONE', #149 ) ;
#32 = PERSON_AND_ORGANIZATION ( #71, #13 ) ;
#33 = PERSON_AND_ORGANIZATION_ROLE ( 'design_owner' ) ;
#34 = APPROVAL_PERSON_ORGANIZATION ( #86, #24, #135 ) ;
#35 = CARTESIAN_POINT ( 'NONE',  ( 0.9999999999999995559, 0.000000000000000000, 0.000000000000000000 ) ) ;
#36 = CYLINDRICAL_SURFACE ( 'NONE', #74, 3.000000000000000000 ) ;
#37 = DIRECTION ( 'NONE',  ( -1.000000000000000000, -0.000000000000000000, -0.000000000000000000 ) ) ;
#38 = CIRCLE ( 'NONE', #156, 3.000000000000000000 ) ;
#39 = SECURITY_CLASSIFICATION ( '', '', #57 ) ;
#40 = CALENDAR_DATE ( 2020, 22, 12 ) ;
#41 = PERSON_AND_ORGANIZATION ( #71, #13 ) ;
#42 = AXIS2_PLACEMENT_3D ( 'NONE', #49, #87, #150 ) ;
#43 = EDGE_LOOP ( 'NONE', ( #142, #107, #54, #29 ) ) ;
#44 = DATE_AND_TIME ( #105, #66 ) ;
#45 = AXIS2_PLACEMENT_3D ( 'NONE', #128, #175, #55 ) ;
#46 = FACE_OUTER_BOUND ( 'NONE', #166, .T. ) ;
#47 = CC_DESIGN_PERSON_AND_ORGANIZATION_ASSIGNMENT ( #15, #159, ( #50 ) ) ;
#48 = LOCAL_TIME ( 17, 31, 4.000000000000000000, #133 ) ;
#49 = CARTESIAN_POINT ( 'NONE',  ( 2.449293598294706907E-16, 0.000000000000000000, 0.000000000000000000 ) ) ;
#50 = PRODUCT_DEFINITION ( 'UNKNOWN', '', #90, #173 ) ;
#51 = VECTOR ( 'NONE', #136, 1000.000000000000000 ) ;
#52 = CC_DESIGN_APPROVAL ( #127, ( #90 ) ) ;
#53 = APPLICATION_CONTEXT ( 'configuration controlled 3d designs of mechanical parts and assemblies' ) ;
#54 = ORIENTED_EDGE ( 'NONE', *, *, #111, .F. ) ;
#55 = DIRECTION ( 'NONE',  ( -0.000000000000000000, 0.000000000000000000, 1.000000000000000000 ) ) ;
#56 = ORIENTED_EDGE ( 'NONE', *, *, #114, .F. ) ;
#57 = SECURITY_CLASSIFICATION_LEVEL ( 'unclassified' ) ;
#58 = DIRECTION ( 'NONE',  ( 1.000000000000000000, 0.000000000000000000, 0.000000000000000000 ) ) ;
#59 = DIRECTION ( 'NONE',  ( 0.000000000000000000, 0.000000000000000000, 1.000000000000000000 ) ) ;
#60 = DIRECTION ( 'NONE',  ( -1.000000000000000000, -0.000000000000000000, -0.000000000000000000 ) ) ;
#61 = PRODUCT ( 'MQWP-25.4-808', 'MQWP-25.4-808', '', ( #73 ) ) ;
#62 = CARTESIAN_POINT ( 'NONE',  ( 0.000000000000000000, 0.000000000000000000, 0.000000000000000000 ) ) ;
#63 = CC_DESIGN_PERSON_AND_ORGANIZATION_ASSIGNMENT ( #32, #2, ( #39 ) ) ;
#64 = PERSON_AND_ORGANIZATION ( #71, #13 ) ;
#65 = COORDINATED_UNIVERSAL_TIME_OFFSET ( 8, 0, .AHEAD. ) ;
#66 = LOCAL_TIME ( 17, 31, 4.000000000000000000, #158 ) ;
#67 = ORIENTED_EDGE ( 'NONE', *, *, #125, .T. ) ;
#68 = APPROVAL_DATE_TIME ( #96, #14 ) ;
#69 = MANIFOLD_SOLID_BREP ( 'Ðý×', #95 ) ;
#70 = UNCERTAINTY_MEASURE_WITH_UNIT (LENGTH_MEASURE( 1.000000000000000082E-05 ), #138, 'distance_accuracy_value', 'NONE');
#71 = PERSON ( 'UNSPECIFIED', 'UNSPECIFIED', 'UNSPECIFIED', ('UNSPECIFIED'), ('UNSPECIFIED'), ('UNSPECIFIED') ) ;
#72 = DIRECTION ( 'NONE',  ( -1.000000000000000000, -0.000000000000000000, -0.000000000000000000 ) ) ;
#73 = MECHANICAL_CONTEXT ( 'NONE', #53, 'mechanical' ) ;
#74 = AXIS2_PLACEMENT_3D ( 'NONE', #91, #37, #75 ) ;
#75 = DIRECTION ( 'NONE',  ( 0.000000000000000000, 0.000000000000000000, 1.000000000000000000 ) ) ;
#76 =( NAMED_UNIT ( * ) SI_UNIT ( $, .STERADIAN. ) SOLID_ANGLE_UNIT ( ) );
#77 = DIRECTION ( 'NONE',  ( -1.000000000000000000, -0.000000000000000000, -0.000000000000000000 ) ) ;
#78 = ADVANCED_FACE ( 'NONE', ( #1 ), #82, .T. ) ;
#79 = DATE_TIME_ROLE ( 'classification_date' ) ;
#80 = EDGE_LOOP ( 'NONE', ( #56, #104 ) ) ;
#81 = CALENDAR_DATE ( 2020, 22, 12 ) ;
#82 = CYLINDRICAL_SURFACE ( 'NONE', #170, 3.000000000000000000 ) ;
#83 = APPROVAL_STATUS ( 'not_yet_approved' ) ;
#84 = CC_DESIGN_DATE_AND_TIME_ASSIGNMENT ( #17, #22, ( #50 ) ) ;
#85 = APPROVAL_STATUS ( 'not_yet_approved' ) ;
#86 = PERSON_AND_ORGANIZATION ( #71, #13 ) ;
#87 = DIRECTION ( 'NONE',  ( -1.000000000000000000, -0.000000000000000000, -0.000000000000000000 ) ) ;
#88 = VECTOR ( 'NONE', #113, 1000.000000000000000 ) ;
#89 = CARTESIAN_POINT ( 'NONE',  ( 0.000000000000000000, 0.000000000000000000, 3.000000000000000000 ) ) ;
#90 = PRODUCT_DEFINITION_FORMATION_WITH_SPECIFIED_SOURCE ( 'ANY', '', #61, .NOT_KNOWN. ) ;
#91 = CARTESIAN_POINT ( 'NONE',  ( 0.000000000000000000, 0.000000000000000000, 0.000000000000000000 ) ) ;
#92 = EDGE_CURVE ( 'NONE', #31, #121, #38, .T. ) ;
#93 = APPLICATION_PROTOCOL_DEFINITION ( 'international standard', 'config_control_design', 1994, #154 ) ;
#94 = COORDINATED_UNIVERSAL_TIME_OFFSET ( 8, 0, .AHEAD. ) ;
#95 = CLOSED_SHELL ( 'NONE', ( #172, #78, #10, #140 ) ) ;
#96 = DATE_AND_TIME ( #129, #174 ) ;
#97 = FACE_OUTER_BOUND ( 'NONE', #80, .T. ) ;
#98 = APPROVAL_DATE_TIME ( #44, #24 ) ;
#99 = DIRECTION ( 'NONE',  ( 0.000000000000000000, 0.000000000000000000, 1.000000000000000000 ) ) ;
#100 = LINE ( 'NONE', #89, #51 ) ;
#101 = CC_DESIGN_PERSON_AND_ORGANIZATION_ASSIGNMENT ( #41, #33, ( #61 ) ) ;
#102 = DIRECTION ( 'NONE',  ( 0.000000000000000000, 0.000000000000000000, -1.000000000000000000 ) ) ;
#103 = CIRCLE ( 'NONE', #42, 3.000000000000000000 ) ;
#104 = ORIENTED_EDGE ( 'NONE', *, *, #92, .F. ) ;
#105 = CALENDAR_DATE ( 2020, 22, 12 ) ;
#106 = DIRECTION ( 'NONE',  ( 0.000000000000000000, 0.000000000000000000, 1.000000000000000000 ) ) ;
#107 = ORIENTED_EDGE ( 'NONE', *, *, #153, .T. ) ;
#108 = CC_DESIGN_APPROVAL ( #24, ( #50 ) ) ;
#109 = EDGE_LOOP ( 'NONE', ( #147, #144, #160, #134 ) ) ;
#110 = APPROVAL_DATE_TIME ( #7, #127 ) ;
#111 = EDGE_CURVE ( 'NONE', #163, #5, #103, .T. ) ;
#112 = CARTESIAN_POINT ( 'NONE',  ( 2.449293598294706907E-16, 0.000000000000000000, 0.000000000000000000 ) ) ;
#113 = DIRECTION ( 'NONE',  ( -1.000000000000000000, -0.000000000000000000, -0.000000000000000000 ) ) ;
#114 = EDGE_CURVE ( 'NONE', #121, #31, #123, .T. ) ;
#115 = CARTESIAN_POINT ( 'NONE',  ( 2.449293598294706907E-16, 0.000000000000000000, 3.000000000000000000 ) ) ;
#116 = AXIS2_PLACEMENT_3D ( 'NONE', #9, #60, #59 ) ;
#117 = CC_DESIGN_PERSON_AND_ORGANIZATION_ASSIGNMENT ( #122, #145, ( #90 ) ) ;
#118 = DATE_AND_TIME ( #81, #139 ) ;
#119 = EDGE_CURVE ( 'NONE', #121, #163, #100, .T. ) ;
#120 = SHAPE_DEFINITION_REPRESENTATION ( #28, #165 ) ;
#121 = VERTEX_POINT ( 'NONE', #23 ) ;
#122 = PERSON_AND_ORGANIZATION ( #71, #13 ) ;
#123 = CIRCLE ( 'NONE', #116, 3.000000000000000000 ) ;
#124 = APPROVAL_PERSON_ORGANIZATION ( #130, #14, #18 ) ;
#125 = EDGE_CURVE ( 'NONE', #5, #163, #146, .T. ) ;
#126 = CARTESIAN_POINT ( 'NONE',  ( 0.000000000000000000, 3.673940397442059868E-16, -3.000000000000000000 ) ) ;
#127 = APPROVAL ( #85, 'UNSPECIFIED' ) ;
#128 = CARTESIAN_POINT ( 'NONE',  ( 0.9999999999999997780, 3.000000000000000000, 0.000000000000000000 ) ) ;
#129 = CALENDAR_DATE ( 2020, 22, 12 ) ;
#130 = PERSON_AND_ORGANIZATION ( #71, #13 ) ;
#131 = CC_DESIGN_PERSON_AND_ORGANIZATION_ASSIGNMENT ( #64, #143, ( #90 ) ) ;
#132 = CARTESIAN_POINT ( 'NONE',  ( 0.000000000000000000, 0.000000000000000000, 0.000000000000000000 ) ) ;
#133 = COORDINATED_UNIVERSAL_TIME_OFFSET ( 8, 0, .AHEAD. ) ;
#134 = ORIENTED_EDGE ( 'NONE', *, *, #125, .F. ) ;
#135 = APPROVAL_ROLE ( '' ) ;
#136 = DIRECTION ( 'NONE',  ( -1.000000000000000000, -0.000000000000000000, -0.000000000000000000 ) ) ;
#137 = CC_DESIGN_SECURITY_CLASSIFICATION ( #39, ( #90 ) ) ;
#138 =( LENGTH_UNIT ( ) NAMED_UNIT ( * ) SI_UNIT ( .MILLI., .METRE. ) );
#139 = LOCAL_TIME ( 17, 31, 4.000000000000000000, #30 ) ;
#140 = ADVANCED_FACE ( 'NONE', ( #46 ), #11, .F. ) ;
#141 = AXIS2_PLACEMENT_3D ( 'NONE', #112, #77, #8 ) ;
#142 = ORIENTED_EDGE ( 'NONE', *, *, #114, .T. ) ;
#143 = PERSON_AND_ORGANIZATION_ROLE ( 'creator' ) ;
#144 = ORIENTED_EDGE ( 'NONE', *, *, #92, .T. ) ;
#145 = PERSON_AND_ORGANIZATION_ROLE ( 'design_supplier' ) ;
#146 = CIRCLE ( 'NONE', #141, 3.000000000000000000 ) ;
#147 = ORIENTED_EDGE ( 'NONE', *, *, #153, .F. ) ;
#148 = APPROVAL_PERSON_ORGANIZATION ( #164, #127, #20 ) ;
#149 = CARTESIAN_POINT ( 'NONE',  ( 0.9999999999999995559, 3.673940397442059868E-16, -3.000000000000000000 ) ) ;
#150 = DIRECTION ( 'NONE',  ( 0.000000000000000000, 0.000000000000000000, 1.000000000000000000 ) ) ;
#151 = CARTESIAN_POINT ( 'NONE',  ( 1.224646799147353454E-16, 3.000000000000000000, 0.000000000000000000 ) ) ;
#152 = DIRECTION ( 'NONE',  ( 1.000000000000000000, 0.000000000000000000, 0.000000000000000000 ) ) ;
#153 = EDGE_CURVE ( 'NONE', #31, #5, #168, .T. ) ;
#154 = APPLICATION_CONTEXT ( 'configuration controlled 3d designs of mechanical parts and assemblies' ) ;
#155 = CC_DESIGN_DATE_AND_TIME_ASSIGNMENT ( #118, #79, ( #39 ) ) ;
#156 = AXIS2_PLACEMENT_3D ( 'NONE', #35, #72, #169 ) ;
#157 = CARTESIAN_POINT ( 'NONE',  ( 2.449293598294706907E-16, 3.673940397442059868E-16, -3.000000000000000000 ) ) ;
#158 = COORDINATED_UNIVERSAL_TIME_OFFSET ( 8, 0, .AHEAD. ) ;
#159 = PERSON_AND_ORGANIZATION_ROLE ( 'creator' ) ;
#160 = ORIENTED_EDGE ( 'NONE', *, *, #119, .T. ) ;
#161 = CALENDAR_DATE ( 2020, 22, 12 ) ;
#162 = AXIS2_PLACEMENT_3D ( 'NONE', #151, #152, #102 ) ;
#163 = VERTEX_POINT ( 'NONE', #115 ) ;
#164 = PERSON_AND_ORGANIZATION ( #71, #13 ) ;
#165 = ADVANCED_BREP_SHAPE_REPRESENTATION ( 'MQWP-25.4-808', ( #69, #26 ), #27 ) ;
#166 = EDGE_LOOP ( 'NONE', ( #3, #67 ) ) ;
#167 = APPLICATION_PROTOCOL_DEFINITION ( 'international standard', 'config_control_design', 1994, #53 ) ;
#168 = LINE ( 'NONE', #126, #88 ) ;
#169 = DIRECTION ( 'NONE',  ( 0.000000000000000000, 0.000000000000000000, 1.000000000000000000 ) ) ;
#170 = AXIS2_PLACEMENT_3D ( 'NONE', #132, #21, #106 ) ;
#171 = CC_DESIGN_APPROVAL ( #14, ( #39 ) ) ;
#172 = ADVANCED_FACE ( 'NONE', ( #25 ), #36, .T. ) ;
#173 = DESIGN_CONTEXT ( 'detailed design', #154, 'design' ) ;
#174 = LOCAL_TIME ( 17, 31, 4.000000000000000000, #65 ) ;
#175 = DIRECTION ( 'NONE',  ( -1.000000000000000000, 0.000000000000000000, -0.000000000000000000 ) ) ;
ENDSEC;
END-ISO-10303-21;
